Hotel Parma Mare

3 stars hotel with garden in Marina di Massa

The Rooms

Air Conditioning, TV SAT, Internet Wi-Fi
Mini Bar and Private service

Prix // Hotel Parma Mare

Prix en Euro
Par Chambre par Jour
Périodes Bed & Breakfast
Du Au Single Double Double en
utilisation single
05-02-2020 07-02-2020 60,00 60,00 60,00
08-02-2020 29-02-2020 50,00 60,00 50,00
29-02-2020 04-03-2020 60,00 70,00 60,00
05-03-2020 09-04-2020 50,00 60,00 50,00
09-04-2020 13-04-2020 80,00 100,00 ------------
14-04-2020 30-04-2020 50,00 60,00 50,00
30-04-2020 03-05-2020 60,00 70,00 60,00
04-05-2020 28-05-2020 50,00 60,00 50,00
29-05-2020 02-06-2020 ------------ --------------- ---------------
03-06-2020 13-06-2020 --------------- --------------- ---------------
13-06-2020 27-06-2020 --------------- --------------- ---------------
27-06-2020 01-08-2020 ----------- ----------- ------------
01-08-2020 08-08-2020 ----------- ------------ --------------
08-08-2020 16-08-2020 --------------- --------------- --------------
16-08-2020 23-08-2020 --------------- --------------- ---------------
23-08-2020 30-08-2020 ----------- --------------- ---------------
30-08-2020 06-09-2020 ----------- --------------- ------------
06-09-2020 13-09-2020 ----------- --------------- ------------
13-09-2020 20-09-2020 ----------- --------------- ------------
18-09-2020 21-09-2020
20-09-2020 30-09-2020 50,00 60,00 50,00
24-09-2020 27-09-2020 50,00 60,00 50,00
27-09-2020 08-10-2020 50,00 60,00 50,00
09-10-2020 11-10-2020 50,00 60,00 50,00
12-10-2020 29-10-2020 50,00 60,00 50,00
30-10-2020 01-11-2020 50,00 70,00 60,00
02-11-2020 23-12-2020 50,00 60,00 50,00
Prix en Euro
Par Personne par Jour
Périodes Demi Pension Pension Complete
Du Au (Min. 3j) (Min. 3j)
05-02-2020 07-02-2020 --------------- ---------------
08-02-2020 29-02-2020 --------------- ---------------
29-02-2020 04-03-2020 --------------- ---------------
05-03-2020 09-04-2020 --------------- ---------------
09-04-2020 13-04-2020 --------------- ---------------
14-04-2020 30-04-2020 ----------- -----------
30-04-2020 03-05-2020 60,00 70,00
04-05-2020 28-05-2020 45,00 55,00
29-05-2020 02-06-2020 60,00 70,00
03-06-2020 13-06-2020 45,00 50,00
13-06-2020 27-06-2020 55,00 60,00
27-06-2020 01-08-2020 65,00 70,00
01-08-2020 08-08-2020 75,00 80,00
08-08-2020 16-08-2020 90,00 100,00
16-08-2020 23-08-2020 80,00 90,00
23-08-2020 30-08-2020 65,00 70,00
30-08-2020 06-09-2020 55,00 60,00
06-09-2020 13-09-2020 50,00 55,00
13-09-2020 20-09-2020 50,00 55,00
18-09-2020 21-09-2020 70,00 75,00
20-09-2020 30-09-2020 50,00 60,00
24-09-2020 27-09-2020 45,00 50,00
27-09-2020 08-10-2020 --------------- ---------------
09-10-2020 11-10-2020 --------------- ---------------
12-10-2020 29-10-2020 --------------- ---------------
30-10-2020 01-11-2020 --------------- ---------------
02-11-2020 23-12-2020 --------------- ---------------
  • Pendant les ponts ou les foires, taux de Pâques appliqués (14/04-17/04);
  • Enfants partageant avec deux adultes:
    • Enfant 0-6 ans -50%;
    • Enfant 6-12 ans -30%;
    • Troisième lit pour adulte (ou enfant de plus de 12 ans) -10%.
  • Suppléments:
    • Berceau (par jour) € 15,00;
    • Extra child sleeping in the existing bed € 25,00 (just for B&B);
    • Single avec demi-pension et pension complète (par jour) + 15 Euro;
    • Déjeuner ou dîner de 25,00 à 30,00 Euro;
  • Plan famille: 2 enfants de moins de 10 ans partageant la chambre avec 2 adultes 3 adultes + 1 = gratuite (7 jours minimum);
  • Pour l'entreprise et / ou des accords avec les entreprises, demander directement à l'hôtel (tarifs spéciaux)
  • L'hôtel est ouvert toute l'année
  • Accès WiFi gratuit
  • Plage conventionnée.
  • Les chambres sont disponibles à 12.00h (jour d'arrivée) et doivent être libérées à 10.00h (jour de départ)

PETS NOT ALLOWED


Réservation - annulation - départ anticipé:
  • - A la confirmation de votre réservation, nous vous demanderons de nous envoyer des arrhes par virement bancaire ou postal.
  • - En cas d'annulation communiquée au moins 15 jours avant la date d'arrivée prévue pour votre séjour, les arrhes vous seront intégralement remboursés, retenue faite des frais de dossier. Si l'annulation est faite au moins 7 jours avant la date prévue d'arrivée, les arrhes pourront être récupérés sur un autre séjour d'au moins 7 jours effectué avant la fin de l'année solaire de l'annulation. Après cette date, les arrhes ne sont pas remboursables.
  • - En cas de départ anticipé, sera facturé le prix des chambres pour tous les jours réservés.
Prix en Euro
Par Chambre par Jour Par Personne par Jour
Périodes Bed & Breakfast Demi Pension Pension Complete
Du Au Single Double Double en
utilisation single
(Min. 3j) (Min. 3j)
05-02-2020 07-02-2020 60,00 60,00 60,00 --------------- ---------------
08-02-2020 29-02-2020 50,00 60,00 50,00 --------------- ---------------
29-02-2020 04-03-2020 60,00 70,00 60,00 --------------- ---------------
05-03-2020 09-04-2020 50,00 60,00 50,00 --------------- ---------------
09-04-2020 13-04-2020 80,00 100,00 ------------ --------------- ---------------
14-04-2020 30-04-2020 50,00 60,00 50,00 ----------- -----------
30-04-2020 03-05-2020 60,00 70,00 60,00 60,00 70,00
04-05-2020 28-05-2020 50,00 60,00 50,00 45,00 55,00
29-05-2020 02-06-2020 ------------ --------------- --------------- 60,00 70,00
03-06-2020 13-06-2020 --------------- --------------- --------------- 45,00 50,00
13-06-2020 27-06-2020 --------------- --------------- --------------- 55,00 60,00
27-06-2020 01-08-2020 ----------- ----------- ------------ 65,00 70,00
01-08-2020 08-08-2020 ----------- ------------ -------------- 75,00 80,00
08-08-2020 16-08-2020 --------------- --------------- -------------- 90,00 100,00
16-08-2020 23-08-2020 --------------- --------------- --------------- 80,00 90,00
23-08-2020 30-08-2020 ----------- --------------- --------------- 65,00 70,00
30-08-2020 06-09-2020 ----------- --------------- ------------ 55,00 60,00
06-09-2020 13-09-2020 ----------- --------------- ------------ 50,00 55,00
13-09-2020 20-09-2020 ----------- --------------- ------------ 50,00 55,00
18-09-2020 21-09-2020 70,00 75,00
20-09-2020 30-09-2020 50,00 60,00 50,00 50,00 60,00
24-09-2020 27-09-2020 50,00 60,00 50,00 45,00 50,00
27-09-2020 08-10-2020 50,00 60,00 50,00 --------------- ---------------
09-10-2020 11-10-2020 50,00 60,00 50,00 --------------- ---------------
12-10-2020 29-10-2020 50,00 60,00 50,00 --------------- ---------------
30-10-2020 01-11-2020 50,00 70,00 60,00 --------------- ---------------
02-11-2020 23-12-2020 50,00 60,00 50,00 --------------- ---------------
  • Pendant les ponts ou les foires, taux de Pâques appliqués (14/04-17/04);
  • Enfants partageant avec deux adultes:
    • Enfant 0-6 ans -50%;
    • Enfant 6-12 ans -30%;
    • Troisième lit pour adulte (ou enfant de plus de 12 ans) -10%.
  • Suppléments:
    • Berceau (par jour) € 15,00;
    • Extra child sleeping in the existing bed € 25,00 (just for B&B);
    • Single avec demi-pension et pension complète (par jour) + 15 Euro;
    • Déjeuner ou dîner de 25,00 à 30,00 Euro;
  • Plan famille: 2 enfants de moins de 10 ans partageant la chambre avec 2 adultes 3 adultes + 1 = gratuite (7 jours minimum);
  • Pour l'entreprise et / ou des accords avec les entreprises, demander directement à l'hôtel (tarifs spéciaux)
  • L'hôtel est ouvert toute l'année
  • Accès WiFi gratuit
  • Plage conventionnée.
  • Les chambres sont disponibles à 12.00h (jour d'arrivée) et doivent être libérées à 10.00h (jour de départ)

PETS NOT ALLOWED


Réservation - annulation - départ anticipé:
  • - A la confirmation de votre réservation, nous vous demanderons de nous envoyer des arrhes par virement bancaire ou postal.
  • - En cas d'annulation communiquée au moins 15 jours avant la date d'arrivée prévue pour votre séjour, les arrhes vous seront intégralement remboursés, retenue faite des frais de dossier. Si l'annulation est faite au moins 7 jours avant la date prévue d'arrivée, les arrhes pourront être récupérés sur un autre séjour d'au moins 7 jours effectué avant la fin de l'année solaire de l'annulation. Après cette date, les arrhes ne sont pas remboursables.
  • - En cas de départ anticipé, sera facturé le prix des chambres pour tous les jours réservés.
Partita I.V.A. (TVA): 00287510457