Hotel Parma Mare

3 stars hotel with garden in Marina di Massa

The Rooms

Air Conditioning, TV SAT, Internet Wi-Fi
Mini Bar and Private service

Prix // Hotel Parma Mare

Prix en Euro
Par Chambre par Jour
Périodes Bed & Breakfast
Du Au Single Double Double en
utilisation single
10-01-2022 03-03-2022 50,00 70,00 60,00
03-03-2022 07-03-2022 70,00 80,00 80,00
07-03-2022 14-04-2022 50,00 60,00 60,00
15-04-2022 18-04-2022 90,00 140,00 ------------
19-04-2022 22-04-2022 70,00 100,00 90,00
23-04-2022 25-04-2022 70,00 100,00 90,00
26-04-2022 21-05-2022 60,00 80,00 80,00
21-05-2022 28-05-2022 60,00 80,00 80,00
28-05-2022 01-06-2022 60,00 80,00 80,00
01-06-2022 05-06-2022 90,00 130 ------------
05-06-2022 11-06-2022 70,00 80,00 80,00
11-06-2022 25-06-2022 ----------- --------------- ------------
25-06-2022 02-07-2022 ----------- --------------- ------------
02-07-2022 30-07-2022 ----------- --------------- ------------
30-07-2022 06-08-2022 ----------- --------------- ------------
30-07-2022 06-08-2022 ----------- --------------- ------------
06-08-2022 21-08-2022 ----------- --------------- ------------
21-08-2022 28-08-2022 ----------- --------------- ------------
28-08-2022 04-09-2022 ----------- --------------- ------------
04-09-2022 11-09-2022 ----------- --------------- ------------
11-09-2022 18-09-2022 ----------- --------------- ------------
18-09-2022 02-10-2022 50,00 70,00 60,00
02-10-2022 23-12-2022 50,00 60,00 60,00
Prix en Euro
Par Personne par Jour
Périodes Demi Pension Pension Complete
Du Au (Min. 3j) (Min. 3j)
10-01-2022 03-03-2022 50,00 ---------------
03-03-2022 07-03-2022 70,00 ------------
07-03-2022 14-04-2022 50,00 ---------------
15-04-2022 18-04-2022 80,00 ---------------
19-04-2022 22-04-2022 70,00 ---------------
23-04-2022 25-04-2022 70,00 ---------------
26-04-2022 21-05-2022 55,00 ---------------
21-05-2022 28-05-2022 60,00 65,00
28-05-2022 01-06-2022 60,00 65,00
01-06-2022 05-06-2022 75,00 80,00
05-06-2022 11-06-2022 55,00 60,00
11-06-2022 25-06-2022 60,00 65,00
25-06-2022 02-07-2022 65,00 70,00
02-07-2022 30-07-2022 75,00 80,00
30-07-2022 06-08-2022 80,00 85,00
30-07-2022 06-08-2022 75,00 80,00
06-08-2022 21-08-2022 90,00 95,00
21-08-2022 28-08-2022 75,00 80,00
28-08-2022 04-09-2022 65,00 70,00
04-09-2022 11-09-2022 60,00 65,00
11-09-2022 18-09-2022 55,00 60,00
18-09-2022 02-10-2022 50,00 55,00
02-10-2022 23-12-2022 50,00 ---------------
  • Pendant les ponts ou les foires, taux de Pâques appliqués (14/04-17/04);
  • Enfants partageant avec deux adultes:
    • Enfant 0-6 ans -50%;
    • Enfant 7-12 ans -30%;
    • Troisième lit pour adulte (ou enfant de plus de 12 ans) -10%.
  • Suppléments:
    • Berceau (par jour) € 20,00;
    • Extra child sleeping in the existing bed € 25,00 (just for B&B);
    • Single avec demi-pension et pension complète (par jour) + 25 Euro;
    • Déjeuner ou dîner de 25,00 à 30,00 Euro;
  •  
  • Pour l'entreprise et / ou des accords avec les entreprises, demander directement à l'hôtel (tarifs spéciaux)
  • L'hôtel est ouvert toute l'année
  • Accès WiFi gratuit
  • Plage conventionnée.
  • Les chambres sont disponibles à 12.00h (jour d'arrivée) et doivent être libérées à 10.00h (jour de départ)

 

PETS NOT ALLOWED


Réservation - annulation - départ anticipé:

  • - A la confirmation de votre réservation, nous vous demanderons de nous envoyer des arrhes par virement bancaire ou postal.
  • - En cas d'annulation communiquée au moins 15 jours avant la date d'arrivée prévue pour votre séjour, les arrhes vous seront intégralement remboursés, retenue faite des frais de dossier. Après cette date, les arrhes ne sont pas remboursables.
  • - En cas de départ anticipé, sera facturé le prix des chambres pour tous les jours réservés.
Prix en Euro
Par Chambre par Jour Par Personne par Jour
Périodes Bed & Breakfast Demi Pension Pension Complete
Du Au Single Double Double en
utilisation single
(Min. 3j) (Min. 3j)
10-01-2022 03-03-2022 50,00 70,00 60,00 50,00 ---------------
03-03-2022 07-03-2022 70,00 80,00 80,00 70,00 ------------
07-03-2022 14-04-2022 50,00 60,00 60,00 50,00 ---------------
15-04-2022 18-04-2022 90,00 140,00 ------------ 80,00 ---------------
19-04-2022 22-04-2022 70,00 100,00 90,00 70,00 ---------------
23-04-2022 25-04-2022 70,00 100,00 90,00 70,00 ---------------
26-04-2022 21-05-2022 60,00 80,00 80,00 55,00 ---------------
21-05-2022 28-05-2022 60,00 80,00 80,00 60,00 65,00
28-05-2022 01-06-2022 60,00 80,00 80,00 60,00 65,00
01-06-2022 05-06-2022 90,00 130 ------------ 75,00 80,00
05-06-2022 11-06-2022 70,00 80,00 80,00 55,00 60,00
11-06-2022 25-06-2022 ----------- --------------- ------------ 60,00 65,00
25-06-2022 02-07-2022 ----------- --------------- ------------ 65,00 70,00
02-07-2022 30-07-2022 ----------- --------------- ------------ 75,00 80,00
30-07-2022 06-08-2022 ----------- --------------- ------------ 80,00 85,00
30-07-2022 06-08-2022 ----------- --------------- ------------ 75,00 80,00
06-08-2022 21-08-2022 ----------- --------------- ------------ 90,00 95,00
21-08-2022 28-08-2022 ----------- --------------- ------------ 75,00 80,00
28-08-2022 04-09-2022 ----------- --------------- ------------ 65,00 70,00
04-09-2022 11-09-2022 ----------- --------------- ------------ 60,00 65,00
11-09-2022 18-09-2022 ----------- --------------- ------------ 55,00 60,00
18-09-2022 02-10-2022 50,00 70,00 60,00 50,00 55,00
02-10-2022 23-12-2022 50,00 60,00 60,00 50,00 ---------------
  • Pendant les ponts ou les foires, taux de Pâques appliqués (14/04-17/04);
  • Enfants partageant avec deux adultes:
    • Enfant 0-6 ans -50%;
    • Enfant 7-12 ans -30%;
    • Troisième lit pour adulte (ou enfant de plus de 12 ans) -10%.
  • Suppléments:
    • Berceau (par jour) € 20,00;
    • Extra child sleeping in the existing bed € 25,00 (just for B&B);
    • Single avec demi-pension et pension complète (par jour) + 25 Euro;
    • Déjeuner ou dîner de 25,00 à 30,00 Euro;
  •  
  • Pour l'entreprise et / ou des accords avec les entreprises, demander directement à l'hôtel (tarifs spéciaux)
  • L'hôtel est ouvert toute l'année
  • Accès WiFi gratuit
  • Plage conventionnée.
  • Les chambres sont disponibles à 12.00h (jour d'arrivée) et doivent être libérées à 10.00h (jour de départ)

 

PETS NOT ALLOWED


Réservation - annulation - départ anticipé:

  • - A la confirmation de votre réservation, nous vous demanderons de nous envoyer des arrhes par virement bancaire ou postal.
  • - En cas d'annulation communiquée au moins 15 jours avant la date d'arrivée prévue pour votre séjour, les arrhes vous seront intégralement remboursés, retenue faite des frais de dossier. Après cette date, les arrhes ne sont pas remboursables.
  • - En cas de départ anticipé, sera facturé le prix des chambres pour tous les jours réservés.
Partita I.V.A. (TVA): 00287510457